ads.txt Walk don't run Mis apuntes de canciones. - Lo mejor del mundo :la música,(piano y flauta)
ads.txt

LA PAGINA PARA APRENDER MÚSICA

Domingo, 20 de abril de 2008
?
 Con estos apuntes toco esta canci?n. Los pongo en mi cuaderno del blog para que no se me olviden.
As? no se me pierden y siempre los tengo a mano.
Titulo: Walk don't run

-|----------|-----------------------------------------------------------------
-|----------|-----------------------------------------------------------------
-|----------|---------------------------------------------2-------------0-2---
-|----------|-------------------------------------------2---------0-2-3-------
-|----------|-7-7-7-5-5-5-3-3-3-2---7-7-7-5-5-5-3-3-3-2-----0-2-3-------------
-|----------|-5-5-5-3-3-3-1-1-1-0-0-5-5-5-3-3-3-1-1-1-0-----------------------
  drum intro  verse                                                                

------------------------------------------------------------------------------
-1-0--------------------------------------------------------------------------
-----2------------0-2-0---------0------------------------------2--------------
------------0-2-3-------3-2-0-2---0-2-3-2-0--0h2p0---0-2-2-2-2---------0-2-3--
------0-2-3---------------------------------3------3-------------0-2-3--------
------------------------------------------------------------------------------
                                                                              

------------------------------------------------------------------------------
-----1-0----------------------------------------------------------------------
-0-2-----2-------------0-2-0---------0-----------------------------------7-9--
-----------------0-2-3-------3-2-0-2---0-2-3-2-0---0h2p0---0------7-9-10------
-----------0-2-3---------------------------------3-------3-----10-------------
------------------------------------------------------------------------------
                                                                              

----8---8-8---8-8---8--8----8--8----8--8----8--5-----5\-4---4----8---12-12----
----8---8-8---8-8---8--10---10-10---10-10---10---6----6\--5--5---10--15b17----
-10---9-----9-----9-------9-------9-------9--------5---5\---4-4--9------------
------------------------------------------------------------------------------
------------------------------------------------------------------------------
------------------------------------------------------------------------------
                                                                              

------------------------------------------------------------------------------
-------------------1-0--------------------------------------------------------
-2-------------0-2-----2-------------0-2-0---------0--------------------------
---------0-2-3-----------------0-2-3-------3-2-0-2---0-2-3-2-0---0h2p0---0-2--
---0-2-3-----------------0-2-3---------------------------------3-------3------
------------------------------------------------------------------------------
                                                                              

----------------------------------------------------------------------|-------
----------------------------------------------------------------------|-------
-------2------------0-2-0---------0----------------------1-1-1---2----|-------
-2-2-2--------0-2-3-------3-2-0-2---0-2-3-2-0--0h2p0---0-2-2-2---2----|-------
--------0-2-3---------------------------------3------3---2-2-2-2-0----|-------
----------------------------------------------------------------------|-------
                                                                              

-|----------------------------------------------------------------------------
-|----------------------------------------------------------------------------
-|----------------------------------------------------------------------------
-|----------------------------------------------------------------------------
-|----------------------------------------------------------------------------
-|----------------------------------------------------------------------------
   bas and drum solo  + repeat verse

Chords

intro		Am|||	G|||	F|||	E| ||	( 2 X )

Am	G	F	E

Am	G 	F	G 	C_Am_F_G	C          E

Am	G 	F	E

Am	G 	F	G 	C_Am_F_G	C_F_C_G/////

C	Am 	F	E 	Am	E

Am	G	F	E

Am	G 	F	G 	C_Am_F_G	C          E

Drumsolo		Am	Am	Am	Am

+ repeat with intro

ending = 	C_F_C

                                                        


Publicado por bach24111 @ 18:03
Comentarios (0)  | Enviar
Comentarios